Search Guitar Tabs
# A B C D E F G H
I J K L M N O P Q
R S T U V W X Y Z

Artist Name contains:
  

Song Title contains:
  

Filter Guitar and Bass Tabs
Type
All Types
Selected Types Below

Power Tab Guitar Pro
Text - Tab Text - Crd
Lyrics Chordpro
Filter

 

Tab Search Results

  Radiohead - Creep (Text - CRD)

        

Creep By Radiohead

Intro

e |----------------------------------|----------------------------------|
B |----------------------------------|3-----------------------3---------|
G |--------------------4-------------|----4-------4---------------------|
D |--------5-------5-----------5-----|--------5-------------------5/----|
A |----5-------5---------------------|----------------------------------|
E |3---------------------------------|----------------------------------|


e |----------------------------------|----------------------------------|
B |----------------------------------|----------------------------------|
G |--------8-----------8-------------|9-----------8-----------8---------|
D |------------9---------------------|------------9---------------9-----|
A |----9-----------9-----------------|----9-----------------------------|
E |7---------------------------------|----------------------------------|


e |----------------------------------|----------------------------------|
B |----------------------------------|----------------------------------|
G |--------9-----------9-------------|10----------9-----------9---------|
D |----------------------------------|----------------------------10----|
A |----10------10--------------10----|--------10----------10------------|
E |8---------------8-----------------|----------------------------------|


e |----------------------------------|----------------------------------|
B |----------------------------------|----------------------------------|
G |----8-----------8-----------------|----8-----------8-----------------|
D |--------10----------10------10----|--------10----------10------------|
A |10----------10----------10--------|10----------10----------10--------|
E |------------------------8---------|----------------------------------|

G
When you were here before
B
Couldn't look you in the eyes
C
You look like an angel
Cm
Your skin makes me cry

G
You float like a feather
B
In a beautiful weather
C
I wish I was special
Cm
You're so fucking special

Chorus:
G
But I'm a creep
B
I'm a wierdo
C
What the hell am I doin' here
Cm
I don't belong here


I don't care if it hurts
I wanna have control
I wanna perfect body
I want a perfect soul

I want you to notice
When I'm not around

You're so fuckin' special
I wish I was special....

(then something like this...)
oooh... she's running away....she's running...run..run...run..ruuuuun

Whatever makes you happy
Whatever you want
You're so fucking special
Wish I was special...

----------------------------------------------------------------------
G B C Cm
=========== =========== =========== ===========
* | | | * *<-3rd Fret * | | | * *<-7th Fret * | | | * *<-8th->* | | * * *
| | | * | | | | | * | | | | | * | | | | | | | |
| * * | | | | * * | | | | * * | | | | * * | | |
| | | | | | | | | | | | | | | | | | | | | | | |

FreeTabs.net

 

RadioheadClick for other Radiohead Guitar Tabs and Lyrics


Creep Radiohead


Guitar Lesson - Radiohead - Creep


How To Play Creep - Radiohead - Fingerstyle Guitar Tutorial & Tabs

© 2004 - 2012 International Computer All rights reserved. Terms of Use and Disclaimer

 Guitar Tabs Bass Tabs Drum Tabs