Search Guitar Tabs
# A B C D E F G H
I J K L M N O P Q
R S T U V W X Y Z

Artist Name contains:
  

Song Title contains:
  

Filter Guitar and Bass Tabs
Type
All Types
Selected Types Below

Power Tab Guitar Pro
Text - Tab Text - Crd
Lyrics Chordpro
Filter

 

Tab Search Results

  Bad Company - Day after Day (Text - CRD)

Day After Day - Badfinger



E = 022100 F# = 244322
Asus4 = x02230 G#m = 466444
A = x02220 F#m = 244222
E = 022100 F#m11 = x44200
B = x24442 E6 = 022102

Tuning:Standard

E----4--5--7\--0----10--9--7--5---7---7\16----
B------------------------------------------------------
G------------------------------------------------------
D------------------------------------------------------
A------------------------------------------------------
E------------------------------------------------------


E Asus4 A E Asus4 A E
I remember finding out about you, everyday my mind is all around you,
B F# A G#m F#m E
Looking out from my lonely room, day af - ter day,
B F#
Bring it home, baby, make it soon,
A G#m F#m E F#m11 E F#m11
I... give... my... love to you! | / / / / | / / / / | / / / / |


E Asus4 A E
I remember holding you while you sleep,
E Asus4 A E
Everyday I feel the tears that you weep,
B F# A G#m F#m E
Looking out of my lonely gloom, day af - ter day,
B F#
Bring it home, baby, make it soon,
A G#m F#m E F#m11 E A
I... give... my... love to you! | / / / / | / / / / | / / / / |


E Asus4 A E
Ah---------! Ah-----ah--! Ah------------!
| / / / / | / / / / | / / / / | / / / / |

E Asus4 A E E6 E
Ah---------! Ah-----ah--! Ah----- ah, ah------!
| / / / / | / / / / | / / / / | / / / / |


E----4--5--7\--0----10~--9--7\--5--5/7-----------------16--14----12----------
B------------------------------------------------------------------------------b12---
G--------------------------------------------------15/16-----------------------------
D---------------------------------------------------------------------------------------
A---------------------------------------------------------------------------------------
E---------------------------------------------------------------------------------------

E----4--5--7\--0---12/14---12---10\9---7---/9--4---
B------------------------------------------------------------
G------------------------------------------------------------
D------------------------------------------------------------
A------------------------------------------------------------
E------------------------------------------------------------




B F# A G#m F#m E
Looking out of my lonely room, day--- after day-----,
B F#
Bring it home, baby, make it soon,
A G#m F#m E F#m11
I... give... my... love to you! | / / / / |


E Asus4 A E Asus4 A E
I remember finding out about you, everyday my mind is all around you,
B F# A G#m F#m E
Looking out of my lonely gloom, day af - ter day,
B F#
Bring it home, baby, make it soon,
A G#m F#m E
I... give... my... love to you!

F#m11 E A G#m F#m E
| / / / / | / / / / | /_/_/ /_/_/ /_/_/ | / ||

***************************************************************************


FreeTabs.net

 

Bad CompanyClick for other Bad Company Guitar Tabs and Lyrics


Badfinger - Day After Day (1971 - HQ - Restored)


BADFINGER - DAY AFTER DAY - Easy Guitar Lesson

© 2004 - 2012 International Computer All rights reserved. Terms of Use and Disclaimer

 Guitar Tabs Bass Tabs Drum Tabs