Search Guitar Tabs
# A B C D E F G H
I J K L M N O P Q
R S T U V W X Y Z

Artist Name contains:
  

Song Title contains:
  

Filter Guitar and Bass Tabs
Type
All Types
Selected Types Below

Power Tab Guitar Pro
Text - Tab Text - Crd
Lyrics Chordpro
Filter

 

Tab Search Results

  Cream - Sunshine of your Love (Text - CRD)

Sunshine of your Love - Chords AND lYRICS


Intro Riff

E------------------------------------------------------------
B------------------------------------------------------------
G------------------------------------------------------------
D----12--12--10--12------------------------------------
A--------------------------12--11--10---------8---------
E--------------------------------------------10------10---

E------------------------------------------------------------------
B------------------------------------------------------------------
G---11--11--9---11---------------------11---10(V)---------
D---12--12--10--12---------------------12------------12---
A-------------------------12--11--10---------------------------
E------------------------------------------------------------------

E------------------------------------------------------------
B---12--12--10--12-------------------------------------
G---12--12--10--12-------------------------------------
D--------------------------12--11--10--------8----------
A-------------------------------------------10------10----
E------------------------------------------------------------


D C D A G F D F/D
It's getting near dawn,
D C D F/D
When lights close their tired eyes.
D C D F/D
I'll soon be with you my love,
D C D F/D
To give you my dawn surprise.
G F G F/G
I'll be with you darling soon,
G F G D
I'll be with you when the stars start falling.

D/D C D A G F D F/D 2x


Chorus Riff

A C G
E-------------------------------
B-------------------------------
G-----------------5------------ Three Times
D---7-------------5-----5-----
A---7---(x3)-----3-----5-----
E---5--------------------3-----

A (8 beats)
E-----------------------------------
A-----------------------------------
D-----------------------------------
G------7----7-7---------7---7----
B------7----7-7-(x7)---7---7----
E------5----5-5---------5---5----

A C G A
I've been waiting so long
C G A
To be where I'm going
C G A
In the sunshine of your love.

D/D C D A G F D F/D

D C D A G F D F/D
I'm with you my love,
D C D F/D
The light's shining through on you.
D C D A G F D F/D
I'm with you my love,
D C D F/D
It's the morning and just we two.
G F G F/G
I'll stay with you darling now,
G F G D
I'll stay with you till my seas are dried up.

D/D C D A G F D F/D 2x

A C G A
I've been waiting so long
C G A
To be where I'm going
C G A
In the sunshine of your love.

Break

D/D C D A G F D F/D 2x

D C D A G F D F/D
I'm with you my love,
D C D F/D
The light's shining through on you.
D C D A G F D F/D
I'm with you my love,
D C D F/D
It's the morning and just we two.
G F G F/G
I'll stay with you darling now,
G F G D
I'll stay with you till my seas are dried up.

D/D C D A G F D F/D 2x

A C G A
I've been waiting so long
C G A
I've been waiting so long
C G A
I've been waiting so long
C G A
To be where I'm going
C G A
In the sunshine of your love.

FreeTabs.net

 

Cream Click for other Cream Guitar Tabs and Lyrics


Sunshine of YOur Love - Cream Guitar Lesson


How to play Sunshine Of Your Love by Cream, Eric Clapton

© 2004 - 2012 International Computer All rights reserved. Terms of Use and Disclaimer

 Guitar Tabs Bass Tabs Drum Tabs